AC / DC "Rocker"

Gtr I (E A D G B E) - 'Malcolm Young (Rhythm Gtr.)'
Gtr II (E A D G B E) - 'Angus Young (Solo Gtr.)'


 Intro
  Fast Rock Shuffle Q=220(8=s8)
 2/4      4/4
  Gtrs I, II
  Q  E E   E E Q  Q  E E   E E Q  Q  E E   E E Q  Q  E E   E E Q  Q  E E
|--------|---------------|---------------|---------------|---------------|
|--------|---------------|---------------|---------------|---------------|
|--------|---2-----------|---2-----------|---2-----------|---2-----------|
|------0h|=2-2-4--2--4-0h|=2-2-4--2--4-0h|=2-2-4--2--4-0h|=2-2-4--2--4-0-|
|------0-|---0-0--0--0-0-|---0-0--0--0-0-|---0-0--0--0-0-|---0-0--0--0-0-|
|--------|---------------|---------------|---------------|---------------|


  E E Q  Q  E E   E E Q  Q  E E   E E Q  Q  E E   E E Q  Q  E E
|---------------|---------------|---------------|-----------------|
|---------------|---------------|---------------|-----------------|
|-2-2-4--2--4-0h|=2-2-4--2--4---|---2-----------|---2-------------|
|---0-0--0--0-0-|---0-0--0--0-0h|=2-2-4--2--4-0h|=2-2-4--2--4-----|
|---------------|-------------0-|---0-0--0--0-0-|---0-0--0--0-0h==|
|---------------|---------------|---------------|-------------0---|


  E E Q  Q  E E   E E Q  Q  E E   E E Q  Q  E E   E E Q  Q  E E
|---------------|---------------|---------------|----------------||
|---------------|---------------|---------------|----------------||
|---------------|---------------|---2-----------|---2------------||
|---------------|-------------0h|=2-2-4--2--4-0h|=2-2-4--2--4-0--||
|-2-2-4--2--4-0h|=2-2-4--2--4-0-|---0-0--0--0-0-|---0-0--0--0-0--||
|---0-0--0--0-0-|---0-0--0--0---|---------------|----------------||


 Verse
  E E Q  Q  E E   E E Q  Q  E E   E E Q  Q  E E   E E Q  Q  E E
|---------------|---------------|---------------|----------------|
|---------------|---------------|---------------|----------------|
|---2-----------|---2-----------|---2-----------|---2---------0--|
|-2-2-4--2--4-0h|=2-2-4--2--4-0h|=2-2-4--2--4-0h|=2-2-4--2--4-0--|
|---0-0--0--0-0-|---0-0--0--0-0-|---0-0--0--0-0-|---0-0--0--0----|
|---------------|---------------|---------------|----------------|


  E E Q  Q  E E   E E Q  Q  E E   E E Q  Q  E E   E E Q  Q  E E
|---------------|---------------|---------------|-----------------|
|---------------|---------------|---------------|-----------------|
|-2-2-4--2--4-0h|=2-2-4--2--4---|---2-----------|---2-------------|
|---0-0--0--0-0-|---0-0--0--0-0h|=2-2-4--2--4-0h|=2-2-4--2--4-----|
|---------------|-------------0-|---0-0--0--0-0-|---0-0--0--0-0h==|
|---------------|---------------|---------------|-------------0---|


  E E Q  Q  E E   E E Q  Q  E E   E E Q  Q  E E   E E Q  Q  E E
|---------------|---------------|---------------|----------------||
|---------------|---------------|---------------|----------------||
|---------------|---------------|---2-----------|---2------------||
|---------------|-------------0h|=2-2-4--2--4-0h|=2-2-4--2--4-0--||
|-2-2-4--2--4-0h|=2-2-4--2--4-0-|---0-0--0--0-0-|---0-0--0--0-0--||
|---0-0--0--0-0-|---0-0--0--0---|---------------|----------------||


 Bridge
  $
  Q  Q  H      Q  Q  H      Q  Q  H      q  Q  H
|------------|------------|------------|------------||
|------------|------------|------------|------------||
|-2----------|-2----------|-2----------|-2----------||
|-2----------|-2----------|-2----------|-2----------||
|-0----------|-0----------|-0----------|-0----------||
|------------|------------|------------|------------||


 Chorus
  E E Q  Q  E E   E E Q  Q  E E   E E Q  Q  E E   E E Q  Q  E E
|---------------|---------------|---------------|----------------|
|---------------|---------------|---------------|----------------|
|-2-2-4--2--4-0h|=2-2-4--2--4---|---2-----------|---2------------|
|---0-0--0--0-0-|---0-0--0--0-0h|=2-2-4--2--4-0h|=2-2-4--2--4----|
|---------------|-------------0-|---0-0--0--0-0-|---0-0--0--0-0--|
|---------------|---------------|---------------|-------------0--|


                                                         To Coda
  E E Q  Q  E E   E E Q  Q  E E   E E Q  Q  E E   E E Q  Q  E E
|---------------|---------------|---------------|----------------||
|---------------|---------------|---------------|----------------||
|---------------|---------------|---2-----------|---2------------||
|---------------|-------------0h|=2-2-4--2--4-0h|=2-2-4--2--4-0--||
|-2-2-4--2--4-0h|=2-2-4--2--4-0-|---0-0--0--0-0-|---0-0--0--0-0--||
|---0-0--0--0-0-|---0-0--0--0---|---------------|----------------||


 Guitar Solo 1
  Gtr II
  ~~~~~~~~~~~~~~~~~~~~~~~~~~~~~~~~~~~
  W          +W           +H     +Q.   E    E E E E E E E E
|----------|------------|----------------|-------------------|
|----------|------------|--------------0-|-10p0-8p0-7p0-6p0--|
|----------|------------|----------------|-------------------|
|-7--------|-(7)--------|-(7)----(7)-----|-------------------|
|----------|------------|----------------|-------------------|
|----------|------------|----------------|-------------------|
|
| Gtr I
| W           W            H      H         Q   Q   Q   Q
|----------|------------|----------------|-------------------|
|----------|------------|----------------|-------------------|
|-2--------|--2---------|--2------2------|--2---2---2---2----|
|-2--------|--2---------|--2------2------|--2---2---2---2----|
|-0--------|--0---------|--0------0------|--0---0---0---0----|
|----------|------------|----------------|-------------------|


   W                   S     +S   E  E  E  Q   E  E
|-------------------|-------------------------------|
|-13b15-------------|-12b13r(12)-10-12----10-----10-|
|-------------------|------------------11-----11----|
|-------------------|-------------------------------|
|-------------------|-------------------------------|
|-------------------|-------------------------------|
|
|  E    E Q  Q  E E    E          E  Q     Q   E  E
|-------------------|-------------------------------|
|-------------------|-------------------------------|
|--2----2-4--2--4-0h|==2----------2--4-----2---4----|
|-------0-0--0--0-0-|-------------0--0-----0---0--0h|
|-------------------|-----------------------------0-|
|-------------------|-------------------------------|


   +H        +E   E  +E   E    H           +E    E     +E   E
|------------------------12-|----------------------------------|
|-(10)------(10)-12-(12)----|-12b14=======(12)r-12b13r(12)-10--|
|---------------------------|----------------------------------|
|---------------------------|----------------------------------|
|---------------------------|----------------------------------|
|---------------------------|----------------------------------|
|
|   E  E Q    Q       E   E    E     E Q    Q           E   E
|---------------------------|----------------------------------|
|---------------------------|----------------------------------|
|------2--------------------|--------2-------------------------|
|---2--2-4----2-------4---0h|==2-----2-4----2-----------4------|
|------0-0----0-------0---0-|--------0-0----0-----------0---0h=|
|---------------------------|-------------------------------0--|


   |---3---|                  |---3----|
   E  E    E  Q   Q  E  E    +E   E    E  Q   Q     E  E
|-------------------------|-------------------------------|
|-13p12p==10-12--10----12-|-(12)-12p==10-12--12b13----12--|
|-------------------------|-------------------------------|
|-------------------------|-------------------------------|
|-------------------------|-------------------------------|
|-------------------------|-------------------------------|
|
|  E    E     Q   Q  E  E     E     E     Q   Q     E  E
|-------------------------|-------------------------------|
|-------------------------|-------------------------------|
|-------------------------|-------------------------------|
|-------------------------|----------------------------0h=|
|--2----2-----4---2--4--0h|===2-----2-----4---2-----4--0--|
|-------0-----0---0--0--0-|---------0-----0---0-----0-----|


   |-----3-----|  |--3--|  |--3--|  |---3---|
   E      E    E  E  E  E  E  E  E  E  E    E
|--------12------12----12----12----12------12-|
|-12b14=======12----12----12----12----12------|
|---------------------------------------------|
|---------------------------------------------|
|---------------------------------------------|
|---------------------------------------------|
|
|  E        E     Q        Q        E    E
|---------------------------------------------|
|---------------------------------------------|
|-----------2---------------------------------|
|--2--------2-----4--------2--------4----0h===|
|-----------0-----0--------0--------0----0----|
|---------------------------------------------|


   |---3---|  |--3--|  |--3--|  |---3----|
   E  E    E  E  E  E  E  E  E  E  E     E
|----12------12----12----12----12-------12-|
|-12------12----12----12----12----12r------|
|------------------------------------------|
|------------------------------------------|
|------------------------------------------|
|------------------------------------------|
|
|  E    E     Q        Q        E     E
|------------------------------------------|
|------------------------------------------|
|-------2----------------------------------|
|--2----2-----4--------2--------4-----0h===|
|-------0-----0--------0--------0-----0----|
|------------------------------------------|


   |-----3-----|  |--3--|  |--3--|  |---3---|
   E      E    E  E  E  E  E  E  E  E  E    E
|--------12------12----12----12----12------12-|
|-12b14=======12----12----12----12----12------|
|---------------------------------------------|
|---------------------------------------------|
|---------------------------------------------|
|---------------------------------------------|
|
|  E        E     Q        Q        E    E
|---------------------------------------------|
|---------------------------------------------|
|-----------2---------------------------------|
|--2--------2-----4--------2--------4----0h===|
|-----------0-----0--------0--------0----0----|
|---------------------------------------------|


   |---3---|  |--3--|  |--3--|  |---3----|
   E  E    E  E  E  E  E  E  E  E  E     E
|----12------12----12----12----12-------12-|
|-12------12----12----12----12----12r------|
|------------------------------------------|
|------------------------------------------|
|------------------------------------------|
|------------------------------------------|
|
|  E    E     Q        Q        E     E
|------------------------------------------|
|------------------------------------------|
|-------2----------------------------------|
|--2----2-----4--------2--------4-----0h===|
|-------0-----0--------0--------0-----0----|
|------------------------------------------|


   |-----3-----|  |--3--|  |--3--|   |----3----|
   E      E    E  E  E  E  E  E  E   E  +E     E
|--------12------12----12----12-----12-(12)------|
|-12b14=======12----12----12----12r-----------12-|
|------------------------------------------------|
|------------------------------------------------|
|------------------------------------------------|
|------------------------------------------------|
|
|  E        E     Q        Q         E      E
|------------------------------------------------|
|------------------------------------------------|
|-----------2------------------------------------|
|--2--------2-----4--------2---------4------0h===|
|-----------0-----0--------0---------0------0----|
|------------------------------------------------|


   |-----3------|                          |-3-|       |--3--|
   E     +E     E  E  E  E  E Q     Q      E E E Q     E E   E
|---------------------------------|--------5-----------5--------|
|-12b13r(12)---10-12----10--------|-8b10-----8p5-8b10----8p==5--|
|--------------------11----11-----|-----------------------------|
|---------------------------------|-----------------------------|
|---------------------------------|-----------------------------|
|---------------------------------|-----------------------------|
|
|  E         E     Q     Q    E E   E    E Q     Q     E   E
|---------------------------------|-----------------------------|
|---------------------------------|-----------------------------|
|------------2------------------0h|=2----2-4-----2-----4---0h===|
|--2---------2-----4-----2----4-0-|------0-0-----0-----0---0----|
|------------0-----0-----0----0---|-----------------------------|
|---------------------------------|-----------------------------|


         |-3-|       |--3--|
  Q      E E E Q     E E   E
|--------5-----------5-------|
|-8b10-----8p5-8b10----8p==5-|
|----------------------------|
|----------------------------|
|----------------------------|
|----------------------------|
|
| E    E Q     Q     E   E
|----------------------------|
|----------------------------|
|-2----2-4-----2-----4-------|
|------0-0-----0-----0---0h==|
|------------------------0---|
|----------------------------|


         |-3-|       |--3--|          |-3-|       |--3--|
  Q      E E E Q     E E   E   Q      E E E Q     E E   E
|--------5-----------5-------|--------5-----------5--------|
|-8b10-----8p5-8b10----8p==5-|-8b10-----8p5-8b10----8p==5--|
|----------------------------|-----------------------------|
|----------------------------|-----------------------------|
|----------------------------|-----------------------------|
|----------------------------|-----------------------------|
|
| E    E Q     Q     E   E     E    E Q     Q     E   E
|----------------------------|-----------------------------|
|----------------------------|-----------------------------|
|------2---------------------|------2----------------------|
|-2----2-4-----2-----4---0h==|=2----2-4-----2-----4--------|
|------0-0-----0-----0---0---|------0-0-----0-----0---0h===|
|----------------------------|------------------------0----|


         |-3-|       |--3--|
  Q      E E E Q     E E   E
|--------5-----------5-------|
|-8b10-----8p5-8b10----8p==5-|
|----------------------------|
|----------------------------|
|----------------------------|
|----------------------------|
|
| E    E Q     Q     E   E
|----------------------------|
|----------------------------|
|----------------------------|
|----------------------------|
|-2----2-4-----2-----4---0h==|
|------0-0-----0-----0---0---|


         |-3-|       |--3--|                 |----3----|
  Q      E E E Q     E E   E   Q      E E Q  E   +E    E
|--------5-----------5-------|--------5------------------|
|-8b10-----8p5-8b10----8p==5-|-8b10-----8p5--------------|
|----------------------------|---------------7b9r(7)---5-|
|----------------------------|---------------------------|
|----------------------------|---------------------------|
|----------------------------|---------------------------|
|
| E    E Q     Q     E   E     E    E Q   Q  E       E
|----------------------------|---------------------------|
|----------------------------|---------------------------|
|----------------------------|------2--------------------|
|------------------------0h==|=2----2-4---2--4-------0h==|
|-2----2-4-----2-----4---0---|------0-0---0--0-------0---|
|------0-0-----0-----0-------|---------------------------|


                  Guitar Solo 2
  D.S. al Coda  &
  ~
  W                E     E E E E E E E
|---------------||-------5---5---5---5-|
|---------------||-8b10====8---8---8---|
|---------------||---------------------|
|-7-------------||---------------------|
|---------------||---------------------|
|---------------||---------------------|
|
| E E Q  Q  E E    E     E Q   Q   E E
|---------------||---------------------|
|---------------||---------------------|
|---2-----------||-------2-------------|
|-2-2-4--2--4-0h||=2-----2-4---2---4-0h|
|---0-0--0--0-0-||-------0-0---0---0-0-|
|---------------||---------------------|


          ~~~~
  E E Q  +H          E     E E E E E E  E
|---5--------------|-------5---5---5----5---|
|-8---8--(8)r------|-8b10====8---8---8r-----|
|------------------|------------------------|
|------------------|------------------------|
|------------------|------------------------|
|------------------|------------------------|
|
| E E Q   Q    E E   E     E Q   Q   E  E
|------------------|------------------------|
|------------------|------------------------|
|---2--------------|-------2----------------|
|-2-2-4---2----4-0h|=2-----2-4---2---4--0h==|
|---0-0---0----0-0-|-------0-0---0---0--0---|
|------------------|------------------------|


              ~~~~
  E     E Q  +H          E     E E E E E E E
|-------5--------------|-------5---5---5---5-|
|-8b10====8--(8)r------|-8b10====8---8---8---|
|----------------------|---------------------|
|----------------------|---------------------|
|----------------------|---------------------|
|----------------------|---------------------|
|
| E     E Q   Q    E E   E     E Q   Q   E E
|----------------------|---------------------|
|----------------------|---------------------|
|-------2------------0h|=2-----2-4---2---4-0h|
|-2-----2-4---2----4-0-|-------0-0---0---0-0-|
|-------0-0---0----0---|---------------------|
|----------------------|---------------------|


         ~~~~~~~           ~~~~~~~~~~~~
  E.   S Q  +Q.    E   E E Q      +Q.     E
|------5-------------|--------------------5-|
|-8------8--(8)----8r|-8p5-8b10===(8)r------|
|--------------------|----------------------|
|--------------------|----------------------|
|--------------------|----------------------|
|--------------------|----------------------|
|
| E  E   Q   Q   E E   E E Q       Q    E E
|--------------------|----------------------|
|--------------------|----------------------|
|-2--2---4---2---4---|---2------------------|
|----0---0---0---0-0h|=2-2-4-------2----4-0-|
|------------------0-|---0-0-------0----0-0-|
|--------------------|----------------------|


      ~~~~~~~~~~~~
                         |--3--| |-3-| |-3-| |--3--|
  E E Q      +Q.     E   E E   E E E E E E E E E   E   E E H       E E
|--------------------5-|-8p5-----5-------------------|-----------------|
|-8p5-8b10===(8)r------|-------5---8p5---5-----------|-----------------|
|----------------------|---------------7-----7p5-----|-7---5b8---------|
|----------------------|---------------------------7-|---7---------7-5-|
|----------------------|-----------------------------|-----------------|
|----------------------|-----------------------------|-----------------|
|
| E E Q       Q    E E   E   E   Q     Q     E   E     E E Q    Q  E E
|----------------------|-----------------------------|-----------------|
|----------------------|-----------------------------|-----------------|
|---2------------------|-----------------------------|-----------------|
|-2-2-4-------2----4---|-----------------------------|---------------0-|
|---0-0-------0----0-0h|=2---2---4-----2-----4---0h==|=2-2-4----2--4-0-|
|--------------------0-|-----0---0-----0-----0---0---|---0-0----0--0---|


                ~~~~~~~~~~~~~
  Q   E E E E E E       +H        H
|---------5-----------|------------------||
|-----------5-8-8b10==|=(8)r-------------||
|-----5h6-------------|------------------||
|-7-------------------|------------------||
|---------------------|------------------||
|---------------------|------------------||
|
| E E Q   Q   E E        E   E Q  Q  E E
|---------------------|------------------||
|---------------------|------------------||
|---2-----------------|------2-----------||
|-2-2-4---2---4-0h====|==2---2-4--2--4-0h||
|---0-0---0---0-0-----|------0-0--0--0-0-||
|---------------------|------------------||


 Chorus
   ~~~~~~~~~~~~~~~~~~~~~~~~~~
   W                    +W
|--------------------|---------------------|
|-12b14==============|=(12)r---------------|
|--------------------|---------------------|
|--------------------|---------------------|
|--------------------|---------------------|
|--------------------|---------------------|
|
|  E     E Q  Q  E E     E   E Q  Q  E E
|--------------------|---------------------|
|--------------------|---------------------|
|--------2-----------|-------2-------------|
|--2-----2-4--2--4-0h|===2---2-4--2--4-0h==|
|--------0-0--0--0-0-|-------0-0--0--0-0---|
|--------------------|---------------------|


   ~~~~~~~~~~~~~~~~~~~~~~~~~~~~~~~~~~~~~~~
   W                    +W
|--------------------|-------------------|
|-12b14==============|=(12)r-------------|
|--------------------|-------------------|
|--------------------|-------------------|
|--------------------|-------------------|
|--------------------|-------------------|
|
|  E     E Q  Q  E E     E   E Q  Q  E E
|--------------------|-------------------|
|--------------------|-------------------|
|--------2-----------|-------2---------0h|
|--2-----2-4--2--4-0h|===2---2-4--2--4-0-|
|--------0-0--0--0-0-|-------0-0--0--0---|
|--------------------|-------------------|


 ~~~~~~~~~~~~~~~~~~~~~~~~~~~~
   W                    +W
|--------------------|---------------------|
|-13b15==============|=(13)r---------------|
|--------------------|---------------------|
|--------------------|---------------------|
|--------------------|---------------------|
|--------------------|---------------------|
|
|  E     E Q  Q  E E     E   E Q  Q  E E
|--------------------|---------------------|
|--------------------|---------------------|
|--2-----2-4--2--4-0h|===2---2-4--2--4-----|
|--------0-0--0--0-0-|-------0-0--0--0-0h==|
|--------------------|-----------------0---|
|--------------------|---------------------|


   ~~~~~~~~~~~~~~~~~~~~~~~~~~~~~~~~~~~~~~~
   W                    +W
|--------------------|-------------------|
|-12b14==============|=(12)r-------------|
|--------------------|-------------------|
|--------------------|-------------------|
|--------------------|-------------------|
|--------------------|-------------------|
|
|  E     E Q  Q  E E     E   E Q  Q  E E
|--------------------|-------------------|
|--------------------|-------------------|
|--------2-----------|-------2-----------|
|--2-----2-4--2--4-0h|===2---2-4--2--4---|
|--------0-0--0--0-0-|-------0-0--0--0-0h|
|--------------------|-----------------0-|


 ~~~~~~~~~~~~~~~~~~~~~~~~~~~~~~~~~~~~~
   H           +Q.      E        +W
|-----------------------------|---------------------|
|-15b17=======(15)r----15b17==|=(15)r---------------|
|-----------------------------|---------------------|
|-----------------------------|---------------------|
|-----------------------------|---------------------|
|-----------------------------|---------------------|
|
|  E     E Q    Q    E  E         E   E Q  Q  E E
|-----------------------------|---------------------|
|-----------------------------|---------------------|
|-----------------------------|---------------------|
|-----------------------------|-----------------0h==|
|--2-----2-4----2----4--0h====|===2---2-4--2--4-0---|
|--------0-0----0----0--0-----|-------0-0--0--0-----|


   ~~~~~~~~~~~~~~~~~
   H           +Q     E      +S    S
|------------------------------------|
|-13b15=======(13)r--12b14==(12)r-10-|
|------------------------------------|
|------------------------------------|
|------------------------------------|
|------------------------------------|
|
|  E     E Q    Q     E       E
|------------------------------------|
|------------------------------------|
|--------2---------------------------|
|--2-----2-4----2-----4-------0h=====|
|--------0-0----0-----0-------0------|
|------------------------------------|


    ~~~~
            |-3--|  |--3--|       |-3-| |--3--| |--3--|
   +H       E E +E  E E   E   Q   E E E E +E  E E E   E
|-------------8-(8)-7p5-----|-5---7p5---5-(5)-8p7p5-----|
|-(10)--------------------5-|---------5---------------5-|
|---------------------------|---------------------------|
|---------------------------|---------------------------|
|---------------------------|---------------------------|
|---------------------------|---------------------------|
|
|   E  E Q  Q       E   E     E E Q     Q       E   E
|---------------------------|---------------------------|
|---------------------------|---------------------------|
|------2--------------------|---2-----------------------|
|---2--2-4--2-------4---0h==|=2-2-4-----2-------4---0h==|
|------0-0--0-------0---0---|---0-0-----0-------0---0---|
|---------------------------|---------------------------|


      |-3-| |--3--| |--3--|
  Q   E E E E +E  E E E   E
|-5---7p5---5-(5)-8p7p5-----|
|---------5---------------5-|
|---------------------------|
|---------------------------|
|---------------------------|
|---------------------------|
|
| E E Q     Q       E   E
|---------------------------|
|---------------------------|
|---2-----------------------|
|-2-2-4-----2-------4---0h==|
|---0-0-----0-------0---0---|
|---------------------------|


      |-3-| |--3--| |--3--|       |-3-| |--3--| |--3--|
  Q   E E E E +E  E E E   E   Q   E E E E +E  E E E   E
|-5---7p5---5-(5)-8p7p5-----|-5---7p5---5-(5)-8p7p5-----|
|---------5---------------5-|---------5---------------5-|
|---------------------------|---------------------------|
|---------------------------|---------------------------|
|---------------------------|---------------------------|
|---------------------------|---------------------------|
|
| E E Q     Q       E   E     E E Q     Q       E   E
|---------------------------|---------------------------|
|---------------------------|---------------------------|
|---2-----------------------|---2-------------------0h==|
|-2-2-4-----2-------4---0h==|=2-2-4-----2-------4---0---|
|---0-0-----0-------0---0---|---0-0-----0-------0-------|
|---------------------------|---------------------------|


      |-3-| |--3--| |--3--|
  Q   E E E E +E  E E E   E
|-5---7p5---5-(5)-8p7p5-----|
|---------5---------------5-|
|---------------------------|
|---------------------------|
|---------------------------|
|---------------------------|
|
| E E Q     Q       E   E
|---------------------------|
|---------------------------|
|-2-2-4-----2-------4---0h==|
|---0-0-----0-------0---0---|
|---------------------------|
|---------------------------|


      |-3-| |--3--| |--3--|       |-3-| |--3--| |--3--|
  Q   E E E E +E  E E E   E   Q   E E E E +E  E E E   E
|-5---7p5---5-(5)-8p7p5-----|-5---7p5---5-(5)-8p7p5-----|
|---------5---------------5-|---------5---------------5-|
|---------------------------|---------------------------|
|---------------------------|---------------------------|
|---------------------------|---------------------------|
|---------------------------|---------------------------|
|
| E E Q     Q       E   E     E E Q     Q       E   E
|---------------------------|---------------------------|
|---------------------------|---------------------------|
|-2-2-4-----2-------4-------|---2-----------------------|
|---0-0-----0-------0---0h==|=2-2-4-----2-------4---0h==|
|-----------------------0---|---0-0-----0-------0---0---|
|---------------------------|---------------------------|


      |-3-| |--3--| |--3--|
  Q   E E E E +E  E E E   E
|-5---7p5---5-(5)-8p7p5-----|
|---------5---------------5-|
|---------------------------|
|---------------------------|
|---------------------------|
|---------------------------|
|
| E E Q     Q       E   E
|---------------------------|
|---------------------------|
|---2-----------------------|
|-2-2-4-----2-------4-------|
|---0-0-----0-------0---0h==|
|-----------------------0---|


      |-3-| |--3--| |--3--|       |-3-| |--3--| |--3--|
  Q   E E E E +E  E E E   E   Q   E E E E +E  E E E   E
|-5---7p5---5-(5)-8p7p5-----|-5---7p5---5-(5)-8p7p5-----|
|---------5---------------5-|---------5---------------5-|
|---------------------------|---------------------------|
|---------------------------|---------------------------|
|---------------------------|---------------------------|
|---------------------------|---------------------------|
|
| E E Q     Q       E   E     E E Q     Q       E   E
|---------------------------|---------------------------|
|---------------------------|---------------------------|
|---------------------------|---------------------------|
|---------------------------|-----------------------0h==|
|-2-2-4-----2-------4---0h==|=2-2-4-----2-------4---0---|
|---0-0-----0-------0---0---|---0-0-----0-------0-------|


  ~
  W           E  E E E +Q   Q    +W           +H     +Q.   E
|-5--------|-------------------|------------|-----------------||
|----------|-------------------|------------|-----------------||
|----------|---------2-(2)--2--|-(2)--------|-(2)----(2)------||
|----------|-------2--------2--|-(2)--------|-(2)----(2)---0--||
|----------|--0--4----------0--|-(0)--------|-(0)----(0)---0--||
|----------|-------------------|------------|-----------------||
|
| W          +W                  +W           +W
|----------|-------------------|------------|-----------------||
|----------|-------------------|------------|-----------------||
|-2--------|-(2)---------------|-(2)--------|-(2)-------------||
|-2--------|-(2)---------------|-(2)--------|-(2)-------------||
|-0--------|-(0)---------------|-(0)--------|-(0)-------------||
|----------|-------------------|------------|-----------------||


 Interlude
  E E Q  Q  E E    E  E Q  Q  E E    E  E Q  Q  E E    E  E Q  Q  E E
|---------------|-----------------|-----------------|-------------------|
|---------------|-----------------|-----------------|-------------------|
|---------------|-----------------|-----------------|-------------------|
|-2-2-4--2--4-0h|==2--2-4--2--4-0h|==2--2-4--2--4-0h|==2--2-4--2--4-0h==|
|---0-0--0--0-0-|-----0-0--0--0-0-|-----0-0--0--0-0-|-----0-0--0--0-0---|
|---------------|-----------------|-----------------|-------------------|
|
| W               +W                +W                +W
|---------------|-----------------|-----------------|-------------------|
|---------------|-----------------|-----------------|-------------------|
|-2-------------|-(2)-------------|-(2)-------------|-(2)---------------|
|-2-------------|-(2)-------------|-(2)-------------|-(2)---------------|
|-0-------------|-(0)-------------|-(0)-------------|-(0)---------------|
|---------------|-----------------|-----------------|-------------------|


  E E Q  Q  E E   E E Q  Q  E E   E E Q  Q  E E   E E Q  Q  E E
|---------------|---------------|---------------|-----------------|
|---------------|---------------|---------------|-----------------|
|---------------|---------------|---------------|-----------------|
|-2-2-4--2--4-0h|=2-2-4--2--4-0h|=2-2-4--2--4-0h|=2-2-4--2--4-0h==|
|---0-0--0--0-0-|---0-0--0--0-0-|---0-0--0--0-0-|---0-0--0--0-0---|
|---------------|---------------|---------------|-----------------|
|
| W               W               H      H        Q   Q  Q  Q
|---------------|---------------|---------------|-----------------|
|---------------|---------------|---------------|-----------------|
|-2-------------|-2-------------|-2------2------|-2---2--2--2-----|
|-2-------------|-2-------------|-2------2------|-2---2--2--2-----|
|-0-------------|-0-------------|-0------0------|-0---0--0--0-----|
|---------------|---------------|---------------|-----------------|


    Gtrs I, II
    E E Q  Q  E E   E E Q  Q  E E   E E Q  Q  E E   E E Q  Q  E E   3x
||----------------|---------------|---------------|-----------------||
||o---------------|---------------|---------------|----------------o||
||----------------|---------------|---------------|-----------------||
||--2-2-4--2--4-0h|=2-2-4--2--4-0h|=2-2-4--2--4-0h|=2-2-4--2--4-0h==||
||o---0-0--0--0-0-|---0-0--0--0-0-|---0-0--0--0-0-|---0-0--0--0-0--o||
||----------------|---------------|---------------|-----------------||


  Gtr II
  E E Q  Q  E E   E E Q  Q  E E   E E Q  Q  E E   H      E E E E
|---------------|---------------|---------------|--------------5---||
|---------------|---------------|---------------|------------------||
|---------------|---------------|---------------|----------5h6-----||
|-2-2-4--2--4-0h|=2-2-4--2--4-0h|=2-2-4--2--4-0-|------------------||
|---0-0--0--0-0-|---0-0--0--0-0-|---0-0--0--0-0-|------------------||
|---------------|---------------|---------------|------------------||
|
| Gtr I
| E E Q  Q  E E   E E Q  Q  E E   E E Q  Q  E E   E E Q  Q   E E
|---------------|---------------|---------------|------------------||
|---------------|---------------|---------------|------------------||
|---------------|---------------|---------------|------------------||
|-2-2-4--2--4-0h|=2-2-4--2--4-0h|=2-2-4--2--4-0h|=2-2-4--2---4-0h==||
|---0-0--0--0-0-|---0-0--0--0-0-|---0-0--0--0-0-|---0-0--0---0-0---||
|---------------|---------------|---------------|------------------||


 Outro
  ~                              ~~~~~~~~~~~~~~~~~~~~~~~~~~           ~~
  W               +H       E E E E   +W                +H       E E E E
|-5-------------|-(5)------------5-|-(5)-------------|-(5)------------5---|
|---------------|------------------|-----------------|--------------------|
|---------------|------------5h6---|-----------------|------------5h6-----|
|---------------|------------------|-----------------|--------------------|
|---------------|------------------|-----------------|--------------------|
|---------------|------------------|-----------------|--------------------|
|
| E E Q  Q  E E    E  E Q  Q   E E    E  E Q  Q  E E    E  E Q  Q   E E
|---------------|------------------|-----------------|--------------------|
|---------------|------------------|-----------------|--------------------|
|---------------|------------------|-----------------|--------------------|
|-2-2-4--2--4-0h|==2--2-4--2---4-0h|==2--2-4--2--4-0h|==2--2-4--2---4-0h==|
|---0-0--0--0-0-|-----0-0--0---0-0-|-----0-0--0--0-0-|-----0-0--0---0-0---|
|---------------|------------------|-----------------|--------------------|


   ~~~           ~~~~~~~~           ~~~~~~~~           ~~
  +H       E E E E   +H       E E E E   +H       E E E E
|-(5)------------5-|-(5)------------5-|-(5)------------5--|
|------------------|------------------|-------------------|
|------------5h6---|------------5h6---|------------5h6----|
|------------------|------------------|-------------------|
|------------------|------------------|-------------------|
|------------------|------------------|-------------------|
|
|  E  E Q  Q   E E    E  E Q  Q   E E    E  E Q  Q   E E
|------------------|------------------|-------------------|
|------------------|------------------|-------------------|
|------------------|------------------|-------------------|
|--2--2-4--2---4-0h|==2--2-4--2---4-0h|==2--2-4--2---4-0h=|
|-----0-0--0---0-0-|-----0-0--0---0-0-|-----0-0--0---0-0--|
|------------------|------------------|-------------------|


   ~~~                     ~                      ~
           |-3-| |--3--|          |-3-| |--3--|          |-3-| |--3--|
  +H       E E E E E   E   H      E E E E E   E   H      E E E E E   E
|-(5)----------8p7p5-----|-5----------8p7p5-----|-5----------8p7p5------|
|----------------------8-|--------------------8-|--------------------8--|
|------------------------|----------------------|-----------------------|
|------------------------|----------------------|-----------------------|
|------------------------|----------------------|-----------------------|
|------------------------|----------------------|-----------------------|
|
|  E  E Q  Q     E   E     E E Q  Q     E   E     E E Q  Q     E   E
|------------------------|----------------------|-----------------------|
|------------------------|----------------------|-----------------------|
|------------------------|----------------------|-----------------------|
|--2--2-4--2-----4---0h==|=2-2-4--2-----4---0h==|=2-2-4--2-----4---0h===|
|-----0-0--0-----0---0---|---0-0--0-----0---0---|---0-0--0-----0---0----|
|------------------------|----------------------|-----------------------|


  ~
         |-3-| |--3--|
  H      E E E E E   E   H.         Q        +E   E E E Q  E E
|-5----------8p7p5-----|-5----------7b9====|=(7)r-5-7---5----7b9==|
|--------------------8-|-------------------|----------7-----------|
|----------------------|-------------------|----------------------|
|----------------------|-------------------|----------------------|
|----------------------|-------------------|----------------------|
|----------------------|-------------------|----------------------|
|
| E E Q  Q     E   E     E  E Q  Q  E    E    E   E Q   Q  E E
|----------------------|-------------------|----------------------|
|----------------------|-------------------|----------------------|
|----------------------|-------------------|----------------------|
|-2-2-4--2-----4---0h==|=2--2-4--2--4----0h|==2---2-4---2--4-0h===|
|---0-0--0-----0---0---|----0-0--0--0----0-|------0-0---0--0-0----|
|----------------------|-------------------|----------------------|


  E  E E E Q  E E      E  E E E Q  E E      +E   E Q  Q  Q
|-7r-5-7---5----7b9==|=7r-5-7---5----7b9==|=(7)r-5-5--5-------|
|--------7-----------|--------7-----------|-------------------|
|--------------------|--------------------|-------------------|
|--------------------|--------------------|-------------------|
|--------------------|--------------------|-------------------|
|--------------------|--------------------|-------------------|
|
| E  E Q   Q  E E      E  E Q   Q  E E       E   E Q  Q  E E
|--------------------|--------------------|-------------------|
|--------------------|--------------------|-------------------|
|--------------------|--------------------|-------------------|
|-2--2-4---2--4-0h===|=2--2-4---2--4-0h===|==2---2-4--2--4-0h=|
|----0-0---0--0-0----|----0-0---0--0-0----|------0-0--0--0-0--|
|--------------------|--------------------|-------------------|


  Q   Q     Q  E E   +E  E    +E    E  +Q   Q     Q   Q     Q  E E
|-8---8b9--------8-|-(8)-8b9==(8)r--------------|-8---8b9--------8--|
|----------10------|---------------10-(10)------|----------10-------|
|------------------|----------------------------|-------------------|
|------------------|----------------------------|-------------------|
|------------------|----------------------------|-------------------|
|------------------|----------------------------|-------------------|
|
| E E Q     Q  E E    E  E     Q        Q   E E   E E Q     Q  E E
|------------------|----------------------------|-------------------|
|------------------|----------------------------|-------------------|
|------------------|----------------------------|-------------------|
|-2-2-4-----2--4-0h|==2--2-----4--------2---4-0h|=2-2-4-----2--4-0h=|
|---0-0-----0--0-0-|-----0-----0--------0---0-0-|---0-0-----0--0-0--|
|------------------|----------------------------|-------------------|


  E E    +E    E  +Q   E E   E E E E E E E E
|-8-8b9==(8)r--------------|---5-----5-----5-|
|-------------10-(10)------|-----------------|
|------------------------5h|=6---5h6---5h6---|
|--------------------------|-----------------|
|--------------------------|-----------------|
|--------------------------|-----------------|
|
| E E     Q        Q   E E   E E Q   Q   E E
|--------------------------|-----------------|
|--------------------------|-----------------|
|--------------------------|-----------------|
|-2-2-----4--------2---4-0h|=2-2-4---2---4-0h|
|---0-----0--------0---0-0-|---0-0---0---0-0-|
|--------------------------|-----------------|


  E E E E E E E E   E E E E E E E E
|-----5-----5-----|-5-----5-----5-----|
|-----------------|-------------------|
|-5h6---5h6---5h6-|---5h6---5h6---5---|
|-----------------|-------------------|
|-----------------|-------------------|
|-----------------|-------------------|
|
| E E Q   Q   E E   E E Q   Q   E E
|-----------------|-------------------|
|-----------------|-------------------|
|-----------------|-------------------|
|-2-2-4---2---4-0h|=2-2-4---2---4-0h==|
|---0-0---0---0-0-|---0-0---0---0-0---|
|-----------------|-------------------|


  E E E E  H         Q       Q       +Q.     E
|---5-------------|----------------------------|
|-----------------|-15b17---15b17===(15)----15r|
|-6---5h6/--------|----------------------------|
|-----------------|----------------------------|
|-----------------|----------------------------|
|-----------------|----------------------------|
|
| E E Q    Q  E E    E    E  Q        Q   E  E
|-----------------|----------------------------|
|-----------------|----------------------------|
|-----------------|----------------------------|
|-2-2-4----2--4-0h|==2----2--4--------2---4--0h|
|---0-0----0--0-0-|-------0--0--------0---0--0-|
|-----------------|----------------------------|


   E  E  Q       +Q.     E    E  E  Q       +Q.     E
|--------------------------|----------------------------|
|-15p13-15b17===(15)----15r|-15p13-15b17===(15)----15r--|
|--------------------------|----------------------------|
|--------------------------|----------------------------|
|--------------------------|----------------------------|
|--------------------------|----------------------------|
|
|  E  E  Q        Q   E  E    E  E  Q        Q   E  E
|--------------------------|----------------------------|
|--------------------------|----------------------------|
|--------------------------|----------------------------|
|--2--2--4--------2---4--0h|==2--2--4--------2---4--0h==|
|-----0--0--------0---0--0-|-----0--0--------0---0--0---|
|--------------------------|----------------------------|


   E  E  Q       +Q.     E    E.      S  Q      Q  Q
|--------------------------|---------15--------15------*|
|-15p13-15b17===(15)----15r|-15b17------15b17----------*|
|--------------------------|---------------------------*|
|--------------------------|---------------------------*|
|--------------------------|---------------------------*|
|--------------------------|---------------------------*|
|
|  E  E  Q        Q   E  E    E    E     Q      Q  E E
|--------------------------|---------------------------*|
|--------------------------|---------------------------*|
|--------------------------|---------------------------*|
|--2--2--4--------2---4--0h|==2----2-----4------2--4-0-*|
|-----0--0--------0---0--0-|-------0-----0------0--0-0-*|
|--------------------------|---------------------------*|