In The Midnight Hour

In The Midnight Hour                               


                                         Author:    Wilson Pickett




Intro
                                                               
G||-------------------|-------------------|-------------------|
D||-------------------|-------------------|-------------------|
A||--5----------------|--2----------------|-------------------|
E||-------------------|-------------------|--5----------------|
                                                                       
-------------------|
--5----------------|
-------------------|
-------------------|



Verse
|--------------------6--9---|
|*-------6--9--7--7--------*|
|*--7----------------------*|
|---------------------------|




 Fill 1
|-------------------------|
|*------------------------|
|*-------6--9-------6--9--|
|---7----------7----------|
                                                    
-------------------------|
------------------------*|
-------4--7-------4--7--*|
--5----------5-----------|



   Fill 2                                                
--------------------------|----------------------||
--12----12----12--12------|--9----9----9----9----||
--------------------------|----------------------||
--------------------------|----------------------||
 


Solo
                                                     
|------------------6--9--|------------------6--9--|
|-------6--9--7----------|-------6--9--7----------|
|--7---------------------|--7---------------------|
|------------------------|------------------------|


                                                                              
-------------------11--14--|------------------------|------------------6--9--|
-------6--9--12------------|--9----9--9--9----9--9--|-------6--9--7----------|
--7------------------------|------------------------|--7---------------------|
---------------------------|------------------------|------------------------|


                                                                          
------------------6--9--|------------------6--9--|----------------------||
-------6--9--7----------|-------6--9--7----------|--9----9----9----9----||
--7---------------------|--7---------------------|----------------------||
------------------------|------------------------|----------------------||







Song Structure:

Intro 
Verse  x10
Fill 1
Verse x3
Fill 2
Verse x8
Fill 1
Verse x3
Fill 2
Solo
Verse Ad Lib.


Require Further Advice??

Please email the site for further details, or call 07812 985296 / 01353 669088