THE KILLERS "Smile Like You Mean It "

#----------------------------------PLEASE NOTE---------------------------------#
#This file is the author's own work and represents their interpretation of the #
#song. You may only use this file for private study, scholarship, or research. #
#------------------------------------------------------------------------------##

                        SMILE LIKE YOU MEAN IT (Bassline)
                           As recorded by The Killers
                         (From the 2004 Album HOT FUSS)

Words by Brandon Flowers

Music by Brandon Flowers and Mark Stoermer
Transcribed by JB

 Intro
  Q=125
 4/4
  Gtr I
  Wx8             E  E  E  E  E Q   E    +E   E  Q   E  E  E  E
|------------||-----------------------|-------------------------|
|------------||o----------------9-----|-------------------------|
|------------||o-10-10-10-10-10----12-|-(12)-12-12--12-12-12-12-|
|------------||-----------------------|-------------------------|


   E  E  E  E  E  Q   E    +E   E  E  E  E  E  E  E
|-----------------------|-----------------------------||
|-----------------------|----------------------------o||
|-----------------------|----------------------------o||
|-12-12-12-12-12-10--12-|-(12)-12-12-12-12-10-10-12---||


   Verse 1
     E  E  E  E  E Q   E    +E   E  Q   E  E  E  E    E  E  E  E  E  Q   E
||-----------------------|-------------------------|-----------------------|
||o----------------9-----|-------------------------|-----------------------|
||o-10-10-10-10-10----12-|-(12)-12-12--12-12-12-12-|-----------------------|
||-----------------------|-------------------------|-12-12-12-12-12-10--12-|


 1.                            2.
   +E   E  E  E  E  E  E  E      +E   E  E  E  E  E E  E
|----------------------------||----------------------------|
|---------------------------o||----------------------------|
|---------------------------o||----------------------------|
|-(12)-12-12-12-12-10-10-12--||-(12)-12-12-12-12-10---10---|


     E  E  E  E  E E E  E    +E   E  Q   E  E  E  E    E  E  E  E  E  Q   E
||------------------------|-------------------------|-----------------------|
||o----------------9-9----|-------------------------|-----------------------|
||o-10-10-10-10-10-----12-|-(12)-12-12--12-12-12-12-|-----------------------|
||------------------------|-------------------------|-12-12-12-12-12-10--12-|


 1.                            2.
   +E   E  E  E  E  E  E  E      +E   E  E  E  E  E  E  E
|----------------------------||-----------------------------||
|---------------------------o||-----------------------------||
|---------------------------o||-----------------------------||
|-(12)-12-12-12-12-10-10-12--||-(12)-12-12-12-12-12-12-12---||


 Chorus 1
  E E Q  E E E E   +E  E Q  E E E E   Q  Q  E E E E   +E  E E E E E E E
|----------------|------------------|---------------|-------------------|
|----------------|------------------|-5--5--5-5-5-4-|-(4)-4-4-4-4-4-4-4-|
|-2-2-2--2-2-2-3-|-(3)-3-3--3-3-3-3-|---------------|-------------------|
|----------------|------------------|---------------|-------------------|


  Q  Q  E E E E   +E  E Q  E E E E   Q  Q  E E E E   +E  E E E E E E E
|---------------|------------------|---------------|-------------------||
|---------------|------------------|-5--5--5-5-5-4-|-(4)-4-4-4-4-4-4-4-||
|-2--2--2---2-3-|-(3)-3-3--3-3-3-3-|---------------|-------------------||
|---------3-----|------------------|---------------|-------------------||


   Verse 2
     E  E  E  E  E Q   E    +E   E  Q   E  E  E  E    E  E  E  E  E  Q   E
||-----------------------|-------------------------|-----------------------|
||o----------------9-----|-------------------------|-----------------------|
||o-10-10-10-10-10----12-|-(12)-12-12--12-12-12-12-|-----------------------|
||-----------------------|-------------------------|-12-12-12-12-12-10--12-|


 1.                            2.
   +E   E  E  E  E  E  E  E      +E   E  E  E  E  E E  E
|----------------------------||----------------------------|
|---------------------------o||----------------------------|
|---------------------------o||----------------------------|
|-(12)-12-12-12-12-10-10-12--||-(12)-12-12-12-12-10---10---|


     E  E  E  E  E E E  E    +E   E  Q   E  E  E  E
||------------------------|-------------------------|
||o----------------9-9----|-------------------------|
||o-10-10-10-10-10-----12-|-(12)-12-12--12-12-12-12-|
||------------------------|-------------------------|


                         1.                            2.
   E  E  E  E  E  Q   E    +E   E  E  E  E  E  E  E     W
|-----------------------|----------------------------||------||
|-----------------------|---------------------------o||------||
|-----------------------|---------------------------o||------||
|-12-12-12-12-12-10--12-|-(12)-12-12-12-12-10-10-12--||------||


   Chorus 2
    Q  Q  E E E E   +E  E Q  E E E E   Q  Q  E E E E   +E  E E E E E E E
||----------------|------------------|---------------|---------------------||
||o---------------|------------------|-5--5--5-5-5-4-|-(4)-4-4-4-4-4-4-4--o||
||o-2--2--2---2-3-|-(3)-3-3--3-3-3-3-|---------------|--------------------o||
||----------3-----|------------------|---------------|---------------------||


   Guitar Solo
    E E E E E E E E   +E  E E E E E E E
||------------------|-------------------|
||o-----------------|-------------------|
||o-5-5-5-5-5-5-5-7-|-(7)-7-7-7-7-7-7-7-|
||------------------|-------------------|


  E E E E E E E E   +E  E E E E E E E
|-----------------|---------------------||
|-----------------|--------------------o||
|-3-3-3-3-3-3-3-3-|-(3)-3-3-3-3-3-3-3--o||
|-----------------|---------------------||


   Bridge
      E  E  E  E  E  E  E   E    +E   E  E  E  E  E  E  E
||----------------------------|---------------------------|
||o---------------------------|---------------------------|
||o-/12-12-12-12-12-12-12-/12-|-(12)-12-12-12-12-12-12-12S|
||----------------------------|---------------------------|


  E E E E E E E E   +E  E E E E E E E
|-----------------|---------------------||
|-----------------|--------------------o||
|-7-7-7-7-7-----7-|-(7)-7-----7-----7--o||
|-----------0-0---|-------0-0---0-0-----||


    E  E  E  E  E  E  E   E    +E   E  E  E  E  E  E  E
|---------------------------|----------------------------|
|---------------------------|----------------------------|
|-/12-12-12-12-12-12-12-/12-|-(12)-12-12-12-12-12-12-12\-|
|---------------------------|----------------------------|


  E E E E E E E E   +E  E E E E E E E
|-----------------|-------------------|
|-----------------|-------------------|
|-2-2-2-0-2-2-0-2-|-(2)-2-2-0-2-2-2-2-|
|-----------------|-------------------|


  E E E E E E E E   +E  E E E E E E E
|-----------------|-------------------|
|-----------------|-------------------|
|-3-3-3-2-3-3-2-3-|-(3)-3-3-3-3-3-3-3-|
|-----------------|-------------------|


  E E E E E E E  E    E  E  E  E  E  E  E  E
|------------------|-------------------------||
|------------------|-------------------------||
|-5-5-5-3-5-5-5S17-|-17-17-17-17-17-17-17-17-||
|------------------|-------------------------||


 Chorus 3
  Q  Q  E E E E   +E  E Q  E E E E   Q  Q  E E E E   +E  E E E E E E E
|---------------|------------------|---------------|-------------------|
|---------------|------------------|---------------|-------------------|
|-2--2--2---2-3-|-(3)-3-3--3-3-3-3-|---------------|-------------------|
|---------3-----|------------------|-3--3--3-3-3-2-|-(2)-2-2-2-2-2-2-2-|


  Q  Q  E E E E   +E  E Q  E E E E   Q  Q  E E E E   +E  E E E E E E E
|---------------|------------------|---------------|-------------------|
|---------------|------------5-----|-5--5--5---5-4-|-(4)-4-4-----------|
|-2--2--2---2-3-|-(3)-3-3--3---3-5-|---------5-----|---------5-5-5-5-5-|
|---------3-----|------------------|---------------|-------------------|


  Q  Q  E E E E   +E  E Q  E E E E   Q  E E E E E E   +E  E E E E E E E
|---------------|------------------|----------------|-------------------|
|---------5-----|------------------|----------------|-------------------|
|-2--2--2---2-3-|-(3)-3-3--3-3-3-3-|----------------|-------------------|
|---------------|------------------|-3--3-3-3-3-3-2-|-(2)-2-2-2-2-2-2-2-|


  Q  Q  E E E E   +E  E Q  E E E E   Q  Q  E E E E   +E  E E E E E E E
|---------------|------------------|---------------|-------------------|
|---------------|------------------|-5--5--5---5-4-|-(4)-4-4-----------|
|-2--2--2---2-3-|-(3)-3-3--3---3-5-|---------5-----|---------5-5-5-5-5-|
|---------3-----|------------3-----|---------------|-------------------|


 Outro
    E  E  E  E  E Q   E    +E   E  Q   E  E  E  E
|-----------------------|-------------------------|
|-----------------9-----|-------------------------|
|-/10-10-10-10-10----12-|-(12)-12-12--12-12-12-12-|
|-----------------------|-------------------------|


   E  E  E  E  E  Q   E    +E   E  E  E  E  E  E  E
|-----------------------|---------------------------|
|-----------------------|---------------------------|
|-----------------------|---------------------------|
|-12-12-12-12-12-10--12-|-(12)-12-12-12-12-10-10-12-|


   E  E  E  E  E E E  E    +E   E  Q   E  E  E  E
|-----------------------|-------------------------|
|----------------9-9----|-------------------------|
|-10-10-10-10-10-----12-|-(12)-12-12--12-12-12-12-|
|-----------------------|-------------------------|


   E  E  E  E  E  Q   E    +E   E  E  E  E  E  E  E
|-----------------------|---------------------------|
|-----------------------|---------------------------|
|-----------------------|---------------------------|
|-12-12-12-12-12-10--12-|-(12)-12-12-12-12-10-10-12-|


   E  E  E Q  E E  E    E  E  E Q   E  E  E
|--------------------|----------------------|
|-------------9-9----|----------------------|
|-10-10-10--------12-|-12-12-12----12-12-12-|
|--------------------|----------------------|


   E  E  E Q   E  E  E    E  E  E Q   E  E  E
|----------------------|----------------------|
|----------------------|----------------------|
|----------------------|----------------------|
|-12-12-12----12-12-12-|-12-12-12----12-12-12-|


   E  E  E Q  E E E   E E E Q  E E E
|-------------------|----------------|
|-------------9-9---|----------------|
|-10-10-10--------0-|-0-0-0----0-0-0-|
|-------------------|----------------|


  H    Q  +Q      W          +W           +W
|---------------|----------|------------|--------*|
|---------------|----------|------------|--------*|
|-7-------------|----------|------------|--------*|
|------7--(7)\--|-0--------|-(0)--------|-(0)----*|



***************************************************************************************
* Generated using Power Tab Editor by Brad Larsen - http://powertab.guitarnetwork.org *
***************************************************************************************