Blink 182 "Whats My Age Again?"

***************************************************************************************
#This file is the author's own work and represents their interpretation of the #
#song. You may only use this file for private study, scholarship, or research. #
#------------------------------------------------------------------------------##

                              WHAT'S MY AGE AGAIN?
                            As recorded by Blink 182
                    (From the 1999 Album ENEMA OF THE STATE)

Words and Music by Tom DeLonge and Mark Hoppus
Transcribed by Craig Clayton

   Intro
    Fast Rock Q=160
    Bmaj7      F#           F#/C#      D#m
   4/4
    Gtr I
    E  E  E  E E  E  E  E   E  E  E  E  E  E  E  E  4x
||------------------------|-------------------------||
||o------11---------11----|------11----------11----o||
||----11----11---11----11-|---11----11----11----11--||
||--9---------------------|-------------------------||
||o------------9----------|------------------------o||
||------------------------|-9----------11-----------||


 1st. Verse
  Bmaj7      F#           F#/C#      D#m
  E  E  E  E E  E  E  E   E  E  E  E  E  E  E  E
|-----------------------|------------------------|
|------11---------11----|------11----------11----|
|---11----11---11----11-|---11----11----11----11-|
|-9---------------------|------------------------|
|------------9----------|------------------------|
|-----------------------|-9----------11----------|


    Bmaj7      F#           F#/C#      D#m
    E  E  E  E E  E  E  E   E  E  E  E  E  E  E  E
||------------------------|-------------------------||
||o------11---------11----|------11----------11----o||
||----11----11---11----11-|---11----11----11----11--||
||--9---------------------|-------------------------||
||o------------9----------|------------------------o||
||------------------------|-9----------11-----------||


  Bmaj7      F#           F#/C#                   Bmaj7
  E  E  E  E E  E  E  E   E  E  E  E E  E  E  E   E  E  E  E E  E  E  E
|-----------------------|-----------------------|-----------------------||
|------11---------11----|------11---------11----|------11---------11----||
|---11----11---11----11-|---11----11---11----11-|---11----11---11----11-||
|-9---------------------|-----------------------|-9----------9----------||
|------------9----------|-----------------------|-----------------------||
|-----------------------|-9----------9----------|-----------------------||


 Chorus
  $
  F#5  C#5    D#5      B5          F#5  C#5    D#5      B5
  Gtrs II, III
  Q.   E Q.   E   Q.   E E E E E   Q.   E Q.   E   Q.   E E E E E
|---------------|----------------|---------------|----------------|
|---------------|----------------|---------------|----------------|
|------6-6----8-|-8----4-4-4-4-4-|------6-6----8-|-8----4-4-4-4-4-|
|-4----6-6----8-|-8----4-4-4-4-4-|-4----6-6----8-|-8----4-4-4-4-4-|
|-4----4-4----6-|-6----2-2-2-2-2-|-4----4-4----6-|-6----2-2-2-2-2-|
|-2-------------|----------------|-2-------------|----------------|


                                        To Coda
  F#5  C#5    D#5      B5          F#5  C#5    D#5
  Q.   E Q.   E   Q.   E E E E E   Q.   E Q.   E
|---------------|----------------|---------------|
|---------------|----------------|---------------|
|------6-6----8-|-8----4-4-4-4-4-|------6-6----8-|
|-4----6-6----8-|-8----4-4-4-4-4-|-4----6-6----8-|
|-4----4-4----6-|-6----2-2-2-2-2-|-4----4-4----6-|
|-2-------------|----------------|-2-------------|


                      C#5
  E E E E E E E S S   E E E E E E E E
|-------------------|-----------------|
|-------------------|-----------------|
|-8-8-8-8-8-8-8-8-8-|-6-6-6-6-6-6-6-6-|
|-8-8-8-8-8-8-8-8-8-|-6-6-6-6-6-6-6-6-|
|-6-6-6-6-6-6-6-6-6-|-4-4-4-4-4-4-4-4-|
|-------------------|-----------------|
|
| W                   W
|-------------------|-----------------|
|-------------------|-----------------|
|-------------------|-----------------|
|-------------------|-----------------|
|-------------------|-----------------|
|-------------------|-----------------|


  Bmaj7      F#           F#/C#        D#m
  W                       +W
|-----------------------|---------------------------||
|-----------------------|---------------------------||
|-----------------------|---------------------------||
|-----------------------|---------------------------||
|-4---------------------|-(4)-----------------------||
|-2---------------------|-(2)-----------------------||
|
| Gtr I
| E  E  E  E E  E  E  E    E   E  E  E  E  E  E  E
|-----------------------|---------------------------||
|------11---------11----|--------11----------11-----||
|---11----11---11----11-|-----11----11----11----11--||
|-9---------------------|---------------------------||
|------------9----------|---------------------------||
|-----------------------|--9-----------11-----------||


 2nd. Verse
  B5      F#5       C#5     D#5       B5      F#5       C#5     D#5
  PM--------------------------------------------------------------------|
  E E E E E E E E   E E E E E E E E   E E E E E E E E   E E E E E E E S S
|-----------------|-----------------|-----------------|--------------------|
|-----------------|-----------------|-----------------|--------------------|
|-----------------|-----------------|-----------------|--------------------|
|-4-4-4-4---------|-6-6-6-6-8-8-8---|-4-4-4-4---------|-6-6-6-6-8-8-8------|
|-2-2-2-2-4-4-4---|-4-4-4-4-6-6-6-1-|-2-2-2-2-4-4-4---|-4-4-4-4-6-6-6-1-1--|
|---------2-2-2-0-|-----------------|---------2-2-2-0-|--------------------|


  B5      F#5       C#5     D#5       B5      F#5
  PM------------------------------------------------|
  E E E E E E E E   E E E E E E E E   E E E E E E E E
|-----------------|-----------------|-----------------|
|-----------------|-----------------|-----------------|
|-----------------|-----------------|-----------------|
|-4-4-4-4---------|-6-6-6-6-8-8-8---|-4-4-4-4---------|
|-2-2-2-2-4-4-4---|-4-4-4-4-6-6-6-1-|-2-2-2-2-4-4-4-4-|
|---------2-2-2-0-|-----------------|---------2-2-2-2-|


  C#5               B5
  PM------------------------------|
  E E E E E E E E   E E E E E E E E
|-----------------|-----------------|
|-----------------|-----------------|
|-----------------|-----------------|
|-6-6-6-6-6-6-6-6-|-4-4-4-4-4-4-4-4-|
|-4-4-4-4-4-4-4-4-|-2-2-2-2-2-2-2-2-|
|-----------------|-----------------|


 Chorus
  F#5  C#5    D#5      B5          F#   C#5    D#5      B5
  Q.   E Q.   E   Q.   E E E E E   Q.   E Q.   E   Q.   E E E E E
|---------------|----------------|---------------|----------------|
|---------------|----------------|---------------|----------------|
|------6-6----8-|-8----4-4-4-4-4-|------6-6----8-|-8----4-4-4-4-4-|
|-4----6-6----8-|-8----4-4-4-4-4-|-4----6-6----8-|-8----4-4-4-4-4-|
|-4----4-4----6-|-6----2-2-2-2-2-|-4----4-4----6-|-6----2-2-2-2-2-|
|-2-------------|----------------|-2-------------|----------------|


  F#5  C#5    D#5      B5          F#5  C#5    D#5
  Q.   E Q.   E   Q.   E E E E E   Q.   E Q.   E
|---------------|----------------|---------------|
|---------------|----------------|---------------|
|------6-6----8-|-8----4-4-4-4-4-|------6-6----8-|
|-4----6-6----8-|-8----4-4-4-4-4-|-4----6-6----8-|
|-4----4-4----6-|-6----2-2-2-2-2-|-4----4-4----6-|
|-2-------------|----------------|-2-------------|


                      C#5
  E E E E E E E S S   E E E E E E E E
|-------------------|-----------------||
|-------------------|-----------------||
|-8-8-8-8-8-8-8-8-8-|-6-6-6-6-6-6-6-6-||
|-8-8-8-8-8-8-8-8-8-|-6-6-6-6-6-6-6-6-||
|-6-6-6-6-6-6-6-6-6-|-4-4-4-4-4-4-4-4-||
|-------------------|-----------------||


 Interlude
  Bmaj7/D#                         Bmaj7          F#/C#
  W               +W               W                W
|--------------|-----------------|--------------|-----------------|
|--------------|-----------------|--------------|-----------------|
|--------------|-----------------|--------------|-----------------|
|--------------|-----------------|--------------|-----------------|
|-6------------|--(6)------------|--------------|-----------------|
|--------------|-----------------|--------------|-----------------|
|
| Gtr I
| Q   Q   H       +Q    Q   H      Q   Q   H       +Q    Q   H
|--------------|-----------------|--------------|-----------------|
|----11--------|-------11--------|----11--------|-------11--------|
|--------11----|-(11)------11----|--------11----|-(11)------11----|
|-9------------|-----------------|-9------------|-----------------|
|--------------|-----------------|--------------|-----------------|
|--------------|-----------------|--------------|-----------------|


  D#m              F#/C#            Bmaj7            F#/C#
  Gtr I
  E E E E E Q.     E E E E E Q.     E E E E E Q.     E E E E E Q.
|----------------|----------------|----------------|----------------|
|----------------|----------------|----------------|----------------|
|----------------|----------------|----------------|----------------|
|---------8h9----|---------8h9----|---------8h9----|---------8h9----|
|---9-9-9--------|---9-9-9--------|---9-9-9--------|---9-9-9--------|
|----------------|----------------|----------------|----------------|


  D#m                F#/C#              Bmaj7              F#/C#
  E E E E  E E E E   E E E E  E E E E   E E E E  E E E E   E E E E  E E E E
|------------------|------------------|------------------|------------------|
|------------------|------------------|------------------|------------------|
|---------11-------|---------11-------|---------11-------|---------11-------|
|-----8----------8-|-----8----------8-|-----8----------8-|-----8----------8-|
|---9---9----9-9---|---9---9----9-9---|---9---9----9-9---|---9---9----9-9---|
|------------------|------------------|------------------|------------------|


                                                              D.S. al Coda
  D#m                F#/C#              Bmaj7              F#/C#
  E E E E  E E E E   E E E E  E E E E   E E E E  E E E E   E E E E  E E E E
|------------------|------------------|------------------|------------------||
|------------------|------------------|------------------|------------------||
|---------11-------|---------11-------|---------11-------|---------11-------||
|-----8----------8-|-----8----------8-|-----8----------8-|-----8----------8-||
|---9---9----9-9---|---9---9----9-9---|---9---9----9-9---|---9---9----9-9---||
|------------------|------------------|------------------|------------------||


 Coda
  &
  D#5                 C#5
  Gtrs II, III
  E E E E E E E S S   E E E E E E E E
|-------------------|-----------------|
|-------------------|-----------------|
|-8-8-8-8-8-8-8-8-8-|-6-6-6-6-6-6-6-6-|
|-8-8-8-8-8-8-8-8-8-|-6-6-6-6-6-6-6-6-|
|-6-6-6-6-6-6-6-6-6-|-4-4-4-4-4-4-4-4-|
|-------------------|-----------------|


  F#5      C#5         D#5            B5
  Q.        E Q.        E    Q.        E E  E  E  E
|-------------------------|-------------------------|
|-------------------------|-------------------------|
|-----------6-6---------8-|--8---------4-4--4--4--4-|
|-4---------6-6---------8-|--8---------4-4--4--4--4-|
|-4---------4-4---------6-|--6---------2-2--2--2--2-|
|-2-----------------------|-------------------------|
|
| Gtrs I, IV
| E   E  E  E E   E  E  E    E   E  E  E E  E  E  E
|-------------------------|-------------------------|
|-------11----------11----|--------11---------11----|
|----11----11----11----11-|-----11----11---11----11-|
|-------------------------|--------------9----------|
|-9-----------------------|-------------------------|
|-------------9-----------|-11----------------------|


  F#5      C#5         D#5            B5
  Q.        E Q.        E    Q.        E E  E  E  E
|-------------------------|-------------------------|
|-------------------------|-------------------------|
|-----------6-6---------8-|--8---------4-4--4--4--4-|
|-4---------6-6---------8-|--8---------4-4--4--4--4-|
|-4---------4-4---------6-|--6---------2-2--2--2--2-|
|-2-----------------------|-------------------------|
|
| E   E  E  E E   E  E  E    E   E  E  E E  E  E  E
|-------------------------|-------------------------|
|-------11----------11----|--------11---------11----|
|----11----11----11----11-|-----11----11---11----11-|
|-------------------------|--------------9----------|
|-9-----------------------|-------------------------|
|-------------9-----------|-11----------------------|


  F#5      C#5         D#5            B5              F#5      C#5         D#5
  Q.        E Q.        E    Q.        E E  E  E  E   Q.        E Q.        E
|-------------------------|-------------------------|-------------------------|
|-------------------------|-------------------------|-------------------------|
|-----------6-6---------8-|--8---------4-4--4--4--4-|-----------6-6---------8-|
|-4---------6-6---------8-|--8---------4-4--4--4--4-|-4---------6-6---------8-|
|-4---------4-4---------6-|--6---------2-2--2--2--2-|-4---------4-4---------6-|
|-2-----------------------|-------------------------|-2-----------------------|
|
| E   E  E  E E   E  E  E    E   E  E  E E  E  E  E   E   E  E  E E   E  E  E
|-------------------------|-------------------------|-------------------------|
|-------11----------11----|--------11---------11----|-------11----------11----|
|----11----11----11----11-|-----11----11---11----11-|----11----11----11----11-|
|-------------------------|--------------9----------|-------------------------|
|-9-----------------------|-------------------------|-9-----------------------|
|-------------9-----------|-11----------------------|-------------9-----------|


                              C#5
   E  E  E  E  E  E  E  S S   E  E  E  E E  E  E  E
|---------------------------|-----------------------||
|---------------------------|-----------------------||
|--8--8--8--8--8--8--8--8-8-|-6--6--6--6-6--6--6--6-||
|--8--8--8--8--8--8--8--8-8-|-6--6--6--6-6--6--6--6-||
|--6--6--6--6--6--6--6--6-6-|-4--4--4--4-4--4--4--4-||
|---------------------------|-----------------------||
|
|  E  E  E  E  E  E  E  E     E  E  E  E E  E  E  E
|---------------------------|-----------------------||
|-------11----------11------|------11---------11----||
|----11----11----11----11---|---11----11---11----11-||
|---------------------------|-----------------------||
|---------------------------|------------9----------||
|-11----------11------------|-9---------------------||


 Outro
  F#5      C#5         D#5            B5
  Q.        E Q.        E    Q.        E E  E  E  E
|-------------------------|-------------------------|
|-------------------------|-------------------------|
|-----------6-6---------8-|--8---------4-4--4--4--4-|
|-4---------6-6---------8-|--8---------4-4--4--4--4-|
|-4---------4-4---------6-|--6---------2-2--2--2--2-|
|-2-----------------------|-------------------------|
|
| E   E  E  E E   E  E  E    E   E  E  E E  E  E  E
|-------------------------|-------------------------|
|-------11----------11----|--------11---------11----|
|----11----11----11----11-|-----11----11---11----11-|
|-------------------------|--------------9----------|
|-9-----------------------|-------------------------|
|-------------9-----------|-11----------------------|


  F#5      C#5         D#5            B5
  Q.        E Q.        E    Q.        E E  E  E  E
|-------------------------|-------------------------|
|-------------------------|-------------------------|
|-----------6-6---------8-|--8---------4-4--4--4--4-|
|-4---------6-6---------8-|--8---------4-4--4--4--4-|
|-4---------4-4---------6-|--6---------2-2--2--2--2-|
|-2-----------------------|-------------------------|
|
| E   E  E  E E   E  E  E    E   E  E  E E  E  E  E
|-------------------------|-------------------------|
|-------11----------11----|--------11---------11----|
|----11----11----11----11-|-----11----11---11----11-|
|-------------------------|--------------9----------|
|-9-----------------------|-------------------------|
|-------------9-----------|-11----------------------|


  F#5      C#5         D#5            B5              F#5      C#5         D#5
  Q.        E Q.        E    Q.        E E  E  E  E   Q.        E Q.        E
|-------------------------|-------------------------|-------------------------|
|-------------------------|-------------------------|-------------------------|
|-----------6-6---------8-|--8---------4-4--4--4--4-|-----------6-6---------8-|
|-4---------6-6---------8-|--8---------4-4--4--4--4-|-4---------6-6---------8-|
|-4---------4-4---------6-|--6---------2-2--2--2--2-|-4---------4-4---------6-|
|-2-----------------------|-------------------------|-2-----------------------|
|
| E   E  E  E E   E  E  E    E   E  E  E E  E  E  E   E   E  E  E E   E  E  E
|-------------------------|-------------------------|-------------------------|
|-------11----------11----|--------11---------11----|-------11----------11----|
|----11----11----11----11-|-----11----11---11----11-|----11----11----11----11-|
|-------------------------|--------------9----------|-------------------------|
|-9-----------------------|-------------------------|-9-----------------------|
|-------------9-----------|-11----------------------|-------------9-----------|


                              C#5
   E  E  E  E  E  E  E  S S   E  E  E  E E  E  E  E
|---------------------------|-----------------------|
|---------------------------|-----------------------|
|--8--8--8--8--8--8--8--8-8-|-6--6--6--6-6--6--6--6-|
|--8--8--8--8--8--8--8--8-8-|-6--6--6--6-6--6--6--6-|
|--6--6--6--6--6--6--6--6-6-|-4--4--4--4-4--4--4--4-|
|---------------------------|-----------------------|
|
|  E  E  E  E  E  E  E  E     E  E  E  E E  E  E  E
|---------------------------|-----------------------|
|-------11----------11------|------11---------11----|
|----11----11----11----11---|---11----11---11----11-|
|---------------------------|-----------------------|
|---------------------------|------------9----------|
|-11----------11------------|-9---------------------|


  Bsus2
   W           +W            +W            +W
|-----------|-------------|-------------|---------*|
|--2--------|--(2)--------|--(2)--------|--(2)----*|
|--4--------|--(4)--------|--(4)--------|--(4)----*|
|--4--------|--(4)--------|--(4)--------|--(4)----*|
|--2--------|--(2)--------|--(2)--------|--(2)----*|
|-----------|-------------|-------------|---------*|
|
|  W           +W            +W            +W
|-----------|-------------|-------------|---------*|
|-----------|-------------|-------------|---------*|
|-----------|-------------|-------------|---------*|
|-11--------|-(11)--------|-(11)--------|-(11)----*|
|-----------|-------------|-------------|---------*|
|-----------|-------------|-------------|---------*|



***************************************************************************************
* Generated using Power Tab Editor by Brad Larsen - http://powertab.guitarnetwork.org *
#----------------------------------PLEASE NOTE---------------------------------#